  0
SECTION
  2
HEADER
  9
$ACADVER
  1
AC1015
  9
$ACADMAINTVER
 70
     6
  9
$DWGCODEPAGE
  3
ANSI_1254
  9
$INSBASE
 10
0.0
 20
0.0
 30
0.0
  9
$EXTMIN
 10
0.0
 20
0.0
 30
0.0
  9
$EXTMAX
 10
279.4
 20
215.9
 30
0.0
  9
$LIMMIN
 10
0.0
 20
0.0
  9
$LIMMAX
 10
279.4
 20
215.9
  9
$ORTHOMODE
 70
     0
  9
$REGENMODE
 70
     1
  9
$FILLMODE
 70
     1
  9
$QTEXTMODE
 70
     0
  9
$MIRRTEXT
 70
     1
  9
$LTSCALE
 40
1.0
  9
$ATTMODE
 70
     1
  9
$TEXTSIZE
 40
3.5
  9
$TRACEWID
 40
1.0
  9
$TEXTSTYLE
  7
Standard
  9
$CLAYER
  8
0
  9
$CELTYPE
  6
ByLayer
  9
$CECOLOR
 62
   256
  9
$CELTSCALE
 40
1.0
  9
$DISPSILH
 70
     0
  9
$DIMSCALE
 40
1.0
  9
$DIMASZ
 40
3.5
  9
$DIMEXO
 40
1.0
  9
$DIMDLI
 40
3.75
  9
$DIMRND
 40
0.0
  9
$DIMDLE
 40
0.0
  9
$DIMEXE
 40
1.0
  9
$DIMTP
 40
0.0
  9
$DIMTM
 40
0.0
  9
$DIMTXT
 40
3.5
  9
$DIMCEN
 40
2.5
  9
$DIMTSZ
 40
0.0
  9
$DIMTOL
 70
     0
  9
$DIMLIM
 70
     0
  9
$DIMTIH
 70
     1
  9
$DIMTOH
 70
     1
  9
$DIMSE1
 70
     0
  9
$DIMSE2
 70
     0
  9
$DIMTAD
 70
     1
  9
$DIMZIN
 70
     0
  9
$DIMBLK
  1

  9
$DIMASO
 70
     1
  9
$DIMSHO
 70
     1
  9
$DIMPOST
  1

  9
$DIMAPOST
  1

  9
$DIMALT
 70
     0
  9
$DIMALTD
 70
     3
  9
$DIMALTF
 40
0.0393700787
  9
$DIMLFAC
 40
1.0
  9
$DIMTOFL
 70
     1
  9
$DIMTVP
 40
0.0
  9
$DIMTIX
 70
     0
  9
$DIMSOXD
 70
     0
  9
$DIMSAH
 70
     0
  9
$DIMBLK1
  1

  9
$DIMBLK2
  1

  9
$DIMSTYLE
  2
ISO-25
  9
$DIMCLRD
 70
     0
  9
$DIMCLRE
 70
     0
  9
$DIMCLRT
 70
     0
  9
$DIMTFAC
 40
1.0
  9
$DIMGAP
 40
1.524
  9
$DIMJUST
 70
     0
  9
$DIMSD1
 70
     0
  9
$DIMSD2
 70
     0
  9
$DIMTOLJ
 70
     0
  9
$DIMTZIN
 70
     0
  9
$DIMALTZ
 70
     0
  9
$DIMALTTZ
 70
     0
  9
$DIMUPT
 70
     0
  9
$DIMDEC
 70
     2
  9
$DIMTDEC
 70
     2
  9
$DIMALTU
 70
     2
  9
$DIMALTTD
 70
     3
  9
$DIMTXSTY
  7
Standard
  9
$DIMAUNIT
 70
     0
  9
$DIMADEC
 70
     2
  9
$DIMALTRND
 40
0.0
  9
$DIMAZIN
 70
     0
  9
$DIMDSEP
 70
    44
  9
$DIMATFIT
 70
     3
  9
$DIMFRAC
 70
     0
  9
$DIMLDRBLK
  1

  9
$DIMLUNIT
 70
     2
  9
$DIMLWD
 70
    -2
  9
$DIMLWE
 70
    -2
  9
$DIMTMOVE
 70
     0
  9
$LUNITS
 70
     2
  9
$LUPREC
 70
     2
  9
$SKETCHINC
 40
1.0
  9
$FILLETRAD
 40
10.0
  9
$AUNITS
 70
     0
  9
$AUPREC
 70
     2
  9
$MENU
  1
.
  9
$ELEVATION
 40
0.0
  9
$PELEVATION
 40
0.0
  9
$THICKNESS
 40
0.0
  9
$LIMCHECK
 70
     0
  9
$CHAMFERA
 40
0.0
  9
$CHAMFERB
 40
0.0
  9
$CHAMFERC
 40
0.0
  9
$CHAMFERD
 40
0.0
  9
$SKPOLY
 70
     0
  9
$TDCREATE
 40
2459935.709464225
  9
$TDUCREATE
 40
2459935.584464225
  9
$TDUPDATE
 40
2459935.70946441
  9
$TDUUPDATE
 40
2459935.58446441
  9
$TDINDWG
 40
0.0000000116
  9
$TDUSRTIMER
 40
0.0000000116
  9
$USRTIMER
 70
     1
  9
$ANGBASE
 50
0.0
  9
$ANGDIR
 70
     0
  9
$PDMODE
 70
     0
  9
$PDSIZE
 40
-1.0
  9
$PLINEWID
 40
0.0
  9
$SPLFRAME
 70
     0
  9
$SPLINETYPE
 70
     6
  9
$SPLINESEGS
 70
     8
  9
$HANDSEED
  5
10E
  9
$SURFTAB1
 70
     6
  9
$SURFTAB2
 70
     6
  9
$SURFTYPE
 70
     6
  9
$SURFU
 70
     6
  9
$SURFV
 70
     6
  9
$UCSBASE
  2

  9
$UCSNAME
  2

  9
$UCSORG
 10
0.0
 20
0.0
 30
0.0
  9
$UCSXDIR
 10
1.0
 20
0.0
 30
0.0
  9
$UCSYDIR
 10
0.0
 20
1.0
 30
0.0
  9
$UCSORTHOREF
  2

  9
$UCSORTHOVIEW
 70
     0
  9
$UCSORGTOP
 10
0.0
 20
0.0
 30
0.0
  9
$UCSORGBOTTOM
 10
0.0
 20
0.0
 30
0.0
  9
$UCSORGLEFT
 10
0.0
 20
0.0
 30
0.0
  9
$UCSORGRIGHT
 10
0.0
 20
0.0
 30
0.0
  9
$UCSORGFRONT
 10
0.0
 20
0.0
 30
0.0
  9
$UCSORGBACK
 10
0.0
 20
0.0
 30
0.0
  9
$PUCSBASE
  2

  9
$PUCSNAME
  2

  9
$PUCSORG
 10
0.0
 20
0.0
 30
0.0
  9
$PUCSXDIR
 10
1.0
 20
0.0
 30
0.0
  9
$PUCSYDIR
 10
0.0
 20
1.0
 30
0.0
  9
$PUCSORTHOREF
  2

  9
$PUCSORTHOVIEW
 70
     0
  9
$PUCSORGTOP
 10
0.0
 20
0.0
 30
0.0
  9
$PUCSORGBOTTOM
 10
0.0
 20
0.0
 30
0.0
  9
$PUCSORGLEFT
 10
0.0
 20
0.0
 30
0.0
  9
$PUCSORGRIGHT
 10
0.0
 20
0.0
 30
0.0
  9
$PUCSORGFRONT
 10
0.0
 20
0.0
 30
0.0
  9
$PUCSORGBACK
 10
0.0
 20
0.0
 30
0.0
  9
$USERI1
 70
     0
  9
$USERI2
 70
     0
  9
$USERI3
 70
     0
  9
$USERI4
 70
     0
  9
$USERI5
 70
     0
  9
$USERR1
 40
0.0
  9
$USERR2
 40
0.0
  9
$USERR3
 40
0.0
  9
$USERR4
 40
0.0
  9
$USERR5
 40
0.0
  9
$WORLDVIEW
 70
     1
  9
$SHADEDGE
 70
     3
  9
$SHADEDIF
 70
    70
  9
$TILEMODE
 70
     1
  9
$MAXACTVP
 70
    64
  9
$PINSBASE
 10
0.0
 20
0.0
 30
0.0
  9
$PLIMCHECK
 70
     0
  9
$PEXTMIN
 10
1.0000000000E+20
 20
1.0000000000E+20
 30
1.0000000000E+20
  9
$PEXTMAX
 10
-1.0000000000E+20
 20
-1.0000000000E+20
 30
-1.0000000000E+20
  9
$PLIMMIN
 10
0.0
 20
0.0
  9
$PLIMMAX
 10
420.0
 20
297.0
  9
$UNITMODE
 70
     0
  9
$VISRETAIN
 70
     1
  9
$PLINEGEN
 70
     0
  9
$PSLTSCALE
 70
     1
  9
$TREEDEPTH
 70
  3020
  9
$CMLSTYLE
  2
Standard
  9
$CMLJUST
 70
     0
  9
$CMLSCALE
 40
20.0
  9
$PROXYGRAPHICS
 70
     1
  9
$MEASUREMENT
 70
     1
  9
$CELWEIGHT
370
    -1
  9
$ENDCAPS
280
     0
  9
$JOINSTYLE
280
     0
  9
$LWDISPLAY
290
     1
  9
$INSUNITS
 70
     4
  9
$HYPERLINKBASE
  1

  9
$STYLESHEET
  1

  9
$XEDIT
290
     1
  9
$CEPSNTYPE
380
     0
  9
$PSTYLEMODE
290
     1
  9
$FINGERPRINTGUID
  2
{aae3be63-5b73-4f26-8df0-7fb9822e6bbc}
  9
$VERSIONGUID
  2
{FAEB1C32-E019-11D5-929B-00C0DF256EC4}
  9
$EXTNAMES
290
     1
  9
$PSVPSCALE
 40
0.0
  9
$OLESTARTUP
290
     0
  0
ENDSEC
  0
SECTION
  2
CLASSES
  0
CLASS
  1
ACDBDICTIONARYWDFLT
  2
AcDbDictionaryWithDefault
  3
ObjectDBX Classes
 90
        0
280
     0
281
     0
  0
CLASS
  1
VISUALSTYLE
  2
AcDbVisualStyle
  3
ObjectDBX Classes
 90
     4095
280
     0
281
     0
  0
CLASS
  1
MATERIAL
  2
AcDbMaterial
  3
ObjectDBX Classes
 90
     1153
280
     0
281
     0
  0
CLASS
  1
SCALE
  2
AcDbScale
  3
ObjectDBX Classes
 90
     1153
280
     0
281
     0
  0
CLASS
  1
TABLESTYLE
  2
AcDbTableStyle
  3
ObjectDBX Classes
 90
     4095
280
     0
281
     0
  0
CLASS
  1
MLEADERSTYLE
  2
AcDbMLeaderStyle
  3
ACDB_MLEADERSTYLE_CLASS
 90
     4095
280
     0
281
     0
  0
CLASS
  1
SUN
  2
AcDbSun
  3
SCENEOE
 90
     1153
280
     0
281
     0
  0
CLASS
  1
ACDBPLACEHOLDER
  2
AcDbPlaceHolder
  3
ObjectDBX Classes
 90
        0
280
     0
281
     0
  0
CLASS
  1
LAYOUT
  2
AcDbLayout
  3
ObjectDBX Classes
 90
        0
280
     0
281
     0
  0
ENDSEC
  0
SECTION
  2
TABLES
  0
TABLE
  2
VPORT
  5
8
330
0
100
AcDbSymbolTable
 70
     1
  0
VPORT
  5
29
330
8
100
AcDbSymbolTableRecord
100
AcDbViewportTableRecord
  2
*Active
 70
     0
 10
0.0
 20
0.0
 11
1.0
 21
1.0
 12
139.7
 22
107.95
 13
0.0
 23
0.0
 14
10.0
 24
10.0
 15
10.0
 25
10.0
 16
0.0
 26
0.0
 36
1.0
 17
0.0
 27
0.0
 37
0.0
 40
215.9
 41
1.2941176471
 42
50.0
 43
0.0
 44
0.0
 50
0.0
 51
0.0
 71
     0
 72
  2000
 73
     1
 74
     3
 75
     0
 76
     0
 77
     0
 78
     0
281
     0
 65
     1
110
0.0
120
0.0
130
0.0
111
1.0
121
0.0
131
0.0
112
0.0
122
1.0
132
0.0
 79
     0
146
0.0
  0
ENDTAB
  0
TABLE
  2
LTYPE
  5
5
330
0
100
AcDbSymbolTable
 70
     6
  0
LTYPE
  5
14
330
5
100
AcDbSymbolTableRecord
100
AcDbLinetypeTableRecord
  2
ByBlock
 70
     0
  3

 72
    65
 73
     0
 40
0.0
  0
LTYPE
  5
15
330
5
100
AcDbSymbolTableRecord
100
AcDbLinetypeTableRecord
  2
ByLayer
 70
     0
  3

 72
    65
 73
     0
 40
0.0
  0
LTYPE
  5
16
330
5
100
AcDbSymbolTableRecord
100
AcDbLinetypeTableRecord
  2
Continuous
 70
     0
  3
Solid line
 72
    65
 73
     0
 40
0.0
  0
LTYPE
  5
6E
330
5
100
AcDbSymbolTableRecord
100
AcDbLinetypeTableRecord
  2
HIDDEN
 70
     0
  3
Hidden __ __ __ __ __ __ __ __ __ __ __ __ __ __
 72
    65
 73
     2
 40
1.905
 49
1.27
 74
     0
 49
-0.635
 74
     0
  0
LTYPE
  5
6F
330
5
100
AcDbSymbolTableRecord
100
AcDbLinetypeTableRecord
  2
PHANTOM
 70
     0
  3
Phantom ______  __  __  ______  __  __  ______
 72
    65
 73
     6
 40
12.7
 49
6.35
 74
     0
 49
-1.27
 74
     0
 49
1.27
 74
     0
 49
-1.27
 74
     0
 49
1.27
 74
     0
 49
-1.27
 74
     0
  0
LTYPE
  5
70
330
5
100
AcDbSymbolTableRecord
100
AcDbLinetypeTableRecord
  2
CENTER
 70
     0
  3
Center ____ _ ____ _ ____ _ ____ _ ____ _ ____
 72
    65
 73
     4
 40
10.16
 49
6.35
 74
     0
 49
-1.27
 74
     0
 49
1.27
 74
     0
 49
-1.27
 74
     0
  0
LTYPE
  5
71
330
5
100
AcDbSymbolTableRecord
100
AcDbLinetypeTableRecord
  2
CENTERX2
 70
     0
  3
Center (2x) ________  __  ________  __  _____
 72
    65
 73
     4
 40
20.32
 49
12.7
 74
     0
 49
-2.54
 74
     0
 49
2.54
 74
     0
 49
-2.54
 74
     0
  0
LTYPE
  5
72
330
5
100
AcDbSymbolTableRecord
100
AcDbLinetypeTableRecord
  2
DOT2
 70
     0
  3
Dot (.5x) ........................................
 72
    65
 73
     2
 40
0.635
 49
0.0
 74
     0
 49
-0.635
 74
     0
  0
ENDTAB
  0
TABLE
  2
LAYER
  5
2
330
0
100
AcDbSymbolTable
 70
    17
  0
LAYER
  5
10
330
2
100
AcDbSymbolTableRecord
100
AcDbLayerTableRecord
  2
0
 70
     0
 62
     7
  6
Continuous
370
    -3
390
F
  0
LAYER
  5
73
330
2
100
AcDbSymbolTableRecord
100
AcDbLayerTableRecord
  2
FORMAT
 70
     0
 62
     7
  6
Continuous
370
    -3
390
F
  0
LAYER
  5
74
330
2
100
AcDbSymbolTableRecord
100
AcDbLayerTableRecord
  2
YARDIMCI_GEOMETRI
 70
     0
 62
    -6
  6
Continuous
290
     0
370
    -3
390
F
  0
LAYER
  5
75
330
2
100
AcDbSymbolTableRecord
100
AcDbLayerTableRecord
  2
SAYFA_CERCEVESI
 70
     0
 62
     7
  6
Continuous
370
    25
390
F
  0
LAYER
  5
76
330
2
100
AcDbSymbolTableRecord
100
AcDbLayerTableRecord
  2
ANTET
 70
     0
 62
     7
  6
Continuous
370
    -3
390
F
  0
LAYER
  5
77
330
2
100
AcDbSymbolTableRecord
100
AcDbLayerTableRecord
  2
OLCU
 70
     0
 62
   150
  6
Continuous
370
    -3
390
F
  0
LAYER
  5
78
330
2
100
AcDbSymbolTableRecord
100
AcDbLayerTableRecord
  2
METIN
 70
     0
 62
    96
  6
Continuous
370
    -3
390
F
  0
LAYER
  5
79
330
2
100
AcDbSymbolTableRecord
100
AcDbLayerTableRecord
  2
BALON
 70
     0
 62
     5
  6
Continuous
370
    -3
390
F
  0
LAYER
  5
7A
330
2
100
AcDbSymbolTableRecord
100
AcDbLayerTableRecord
  2
VURGU
 70
     0
 62
     7
  6
Continuous
370
    -3
390
F
  0
LAYER
  5
7B
330
2
100
AcDbSymbolTableRecord
100
AcDbLayerTableRecord
  2
SILIK
 70
     0
 62
     7
  6
Continuous
370
    -3
390
F
  0
LAYER
  5
7C
330
2
100
AcDbSymbolTableRecord
100
AcDbLayerTableRecord
  2
MODEL
 70
     0
 62
     7
  6
Continuous
370
    -3
390
F
  0
LAYER
  5
7D
330
2
100
AcDbSymbolTableRecord
100
AcDbLayerTableRecord
  2
DETAYLANDıRMA
 70
     0
 62
   190
  6
Continuous
370
    -3
390
F
  0
LAYER
  5
7E
330
2
100
AcDbSymbolTableRecord
100
AcDbLayerTableRecord
  2
TOLERANS
 70
     0
 62
   230
  6
Continuous
370
    -3
390
F
  0
LAYER
  5
7F
330
2
100
AcDbSymbolTableRecord
100
AcDbLayerTableRecord
  2
MERKEZ_CIZGILERI
 70
     0
 62
    30
  6
Continuous
370
    -3
390
F
  0
LAYER
  5
80
330
2
100
AcDbSymbolTableRecord
100
AcDbLayerTableRecord
  2
KESIT-DETAY_CIZGILERI
 70
     0
 62
     7
  6
Continuous
370
    -3
390
F
  0
LAYER
  5
81
330
2
100
AcDbSymbolTableRecord
100
AcDbLayerTableRecord
  2
\U+041E\U+0421\U+0415\U+0412\U+042B\U+0415
 70
     0
 62
     7
  6
Continuous
370
    -3
390
F
  0
LAYER
  5
82
330
2
100
AcDbSymbolTableRecord
100
AcDbLayerTableRecord
  2
\U+0412\U+041E\U+0414\U+042F\U+041D\U+042B\U+0415_\U+0417\U+041D\U+0410\U+041A\U+0418
 70
     0
 62
    11
  6
Continuous
370
    -3
390
F
  0
ENDTAB
  0
TABLE
  2
STYLE
  5
3
330
0
100
AcDbSymbolTable
 70
     1
  0
STYLE
  5
11
330
3
100
AcDbSymbolTableRecord
100
AcDbTextStyleTableRecord
  2
Standard
 70
     0
 40
0.0
 41
1.0
 50
0.0
 71
     0
 42
3.5
  3
txt
  4

  0
ENDTAB
  0
TABLE
  2
VIEW
  5
6
330
0
100
AcDbSymbolTable
 70
     0
  0
ENDTAB
  0
TABLE
  2
UCS
  5
7
330
0
100
AcDbSymbolTable
 70
     0
  0
ENDTAB
  0
TABLE
  2
APPID
  5
9
330
0
100
AcDbSymbolTable
 70
     1
  0
APPID
  5
12
330
9
100
AcDbSymbolTableRecord
100
AcDbRegAppTableRecord
  2
ACAD
 70
     0
  0
ENDTAB
  0
TABLE
  2
DIMSTYLE
  5
A
330
0
100
AcDbSymbolTable
 70
     1
100
AcDbDimStyleTable
  0
DIMSTYLE
105
27
330
A
100
AcDbSymbolTableRecord
100
AcDbDimStyleTableRecord
  2
ISO-25
 70
     0
 41
2.5
 42
0.625
 43
3.75
 44
1.25
 73
     0
 74
     0
 77
     1
 78
     8
140
2.5
141
2.5
143
0.0393700787
147
0.625
171
     3
172
     1
178
     0
271
     2
272
     2
274
     3
278
    44
283
     0
284
     8
340
11
  0
ENDTAB
  0
TABLE
  2
BLOCK_RECORD
  5
1
330
0
100
AcDbSymbolTable
 70
     2
  0
BLOCK_RECORD
  5
1F
330
1
100
AcDbSymbolTableRecord
100
AcDbBlockTableRecord
  2
*Model_Space
340
22
  0
BLOCK_RECORD
  5
1B
330
1
100
AcDbSymbolTableRecord
100
AcDbBlockTableRecord
  2
*Paper_Space
340
1E
  0
BLOCK_RECORD
  5
23
330
1
100
AcDbSymbolTableRecord
100
AcDbBlockTableRecord
  2
*Paper_Space0
340
26
  0
BLOCK_RECORD
  5
8E
330
1
100
AcDbSymbolTableRecord
100
AcDbBlockTableRecord
  2
SW_CENTERMARKSYMBOL_0
340
0
102
{BLKREFS
331
99
102
}
  0
ENDTAB
  0
ENDSEC
  0
SECTION
  2
BLOCKS
  0
BLOCK
  5
20
330
1F
100
AcDbEntity
  8
0
100
AcDbBlockBegin
  2
*Model_Space
 70
     0
 10
0.0
 20
0.0
 30
0.0
  3
*Model_Space
  1

  0
ENDBLK
  5
21
330
1F
100
AcDbEntity
  8
0
100
AcDbBlockEnd
  0
BLOCK
  5
1C
330
1B
100
AcDbEntity
 67
     1
  8
0
100
AcDbBlockBegin
  2
*Paper_Space
 70
     0
 10
0.0
 20
0.0
 30
0.0
  3
*Paper_Space
  1

  0
ENDBLK
  5
1D
330
1B
100
AcDbEntity
 67
     1
  8
0
100
AcDbBlockEnd
  0
BLOCK
  5
24
330
23
100
AcDbEntity
  8
0
100
AcDbBlockBegin
  2
*Paper_Space0
 70
     0
 10
0.0
 20
0.0
 30
0.0
  3
*Paper_Space0
  1

  0
ENDBLK
  5
25
330
23
100
AcDbEntity
  8
0
100
AcDbBlockEnd
  0
BLOCK
  5
8F
330
8E
100
AcDbEntity
  8
0
100
AcDbBlockBegin
  2
SW_CENTERMARKSYMBOL_0
 70
     0
 10
0.0
 20
0.0
 30
0.0
  3
SW_CENTERMARKSYMBOL_0
  1

  0
LINE
  5
91
330
8E
100
AcDbEntity
  8
FORMAT
 62
     0
100
AcDbLine
 10
0.0
 20
0.0
 30
0.0
 11
0.0
 21
2.5
 31
0.0
  0
LINE
  5
92
330
8E
100
AcDbEntity
  8
FORMAT
 62
     0
100
AcDbLine
 10
0.0
 20
0.0
 30
0.0
 11
-2.5
 21
0.0
 31
0.0
  0
LINE
  5
93
330
8E
100
AcDbEntity
  8
FORMAT
 62
     0
100
AcDbLine
 10
0.0
 20
0.0
 30
0.0
 11
0.0
 21
-2.5
 31
0.0
  0
LINE
  5
94
330
8E
100
AcDbEntity
  8
FORMAT
 62
     0
100
AcDbLine
 10
0.0
 20
0.0
 30
0.0
 11
2.5
 21
0.0
 31
0.0
  0
LINE
  5
95
330
8E
100
AcDbEntity
  8
FORMAT
 62
     0
100
AcDbLine
 10
0.0
 20
5.0
 30
0.0
 11
0.0
 21
12.5
 31
0.0
  0
LINE
  5
96
330
8E
100
AcDbEntity
  8
FORMAT
 62
     0
100
AcDbLine
 10
-5.0
 20
0.0
 30
0.0
 11
-12.5
 21
0.0
 31
0.0
  0
LINE
  5
97
330
8E
100
AcDbEntity
  8
FORMAT
 62
     0
100
AcDbLine
 10
0.0
 20
-5.0
 30
0.0
 11
0.0
 21
-12.5
 31
0.0
  0
LINE
  5
98
330
8E
100
AcDbEntity
  8
FORMAT
 62
     0
100
AcDbLine
 10
5.0
 20
0.0
 30
0.0
 11
12.5
 21
0.0
 31
0.0
  0
ENDBLK
  5
90
330
8E
100
AcDbEntity
  8
0
100
AcDbBlockEnd
  0
ENDSEC
  0
SECTION
  2
ENTITIES
  0
CIRCLE
  5
83
330
1F
100
AcDbEntity
  8
0
  6
Continuous
 62
     7
370
    25
100
AcDbCircle
 10
139.8323425481
 20
108.7440552885
 30
0.0
 40
7.0
  0
CIRCLE
  5
84
330
1F
100
AcDbEntity
  8
0
  6
Continuous
 62
     7
370
    25
100
AcDbCircle
 10
139.8323425481
 20
108.7440552885
 30
0.0
 40
10.00000000000003
  0
CIRCLE
  5
85
330
1F
100
AcDbEntity
  8
0
  6
Continuous
 62
     7
370
    25
100
AcDbCircle
 10
139.8323425481
 20
108.7440552885
 30
0.0
 40
5.349999999999994
  0
CIRCLE
  5
86
330
1F
100
AcDbEntity
  8
0
  6
Continuous
 62
     7
370
    25
100
AcDbCircle
 10
139.8323425481
 20
108.7440552885
 30
0.0
 40
12.00000000000001
  0
CIRCLE
  5
87
330
1F
100
AcDbEntity
  8
0
  6
Continuous
 62
     7
370
    25
100
AcDbCircle
 10
139.8323425481
 20
108.7440552885
 30
0.0
 40
12.50000000000001
  0
LINE
  5
88
330
1F
100
AcDbEntity
  8
0
  6
Continuous
 62
     7
370
    25
100
AcDbLine
 10
153.3323425481
 20
100.9498266544
 30
0.0
 11
153.3323425481
 21
116.5382839225
 31
0.0
  0
LINE
  5
89
330
1F
100
AcDbEntity
  8
0
  6
Continuous
 62
     7
370
    25
100
AcDbLine
 10
139.8323425481
 20
93.1555980203
 30
0.0
 11
153.3323425481
 21
100.9498266544
 31
0.0
  0
LINE
  5
8A
330
1F
100
AcDbEntity
  8
0
  6
Continuous
 62
     7
370
    25
100
AcDbLine
 10
126.3323425481
 20
116.5382839225
 30
0.0
 11
126.3323425481
 21
100.9498266544
 31
0.0
  0
LINE
  5
8B
330
1F
100
AcDbEntity
  8
0
  6
Continuous
 62
     7
370
    25
100
AcDbLine
 10
153.3323425481
 20
116.5382839225
 30
0.0
 11
139.8323425481
 21
124.3325125566
 31
0.0
  0
LINE
  5
8C
330
1F
100
AcDbEntity
  8
0
  6
Continuous
 62
     7
370
    25
100
AcDbLine
 10
139.8323425481
 20
124.3325125566
 30
0.0
 11
126.3323425481
 21
116.5382839225
 31
0.0
  0
LINE
  5
8D
330
1F
100
AcDbEntity
  8
0
  6
Continuous
 62
     7
370
    25
100
AcDbLine
 10
126.3323425481
 20
100.9498266544
 30
0.0
 11
139.8323425481
 21
93.1555980203
 31
0.0
  0
INSERT
  5
99
330
1F
100
AcDbEntity
  8
FORMAT
 62
     7
100
AcDbBlockReference
  2
SW_CENTERMARKSYMBOL_0
 10
139.8323425481
 20
108.7440552885
 30
0.0
  0
LINE
  5
9A
330
1F
100
AcDbEntity
  8
0
  6
Continuous
 62
     7
370
    25
100
AcDbLine
 10
152.3323425481
 20
137.137405077
 30
0.0
 11
152.3323425481
 21
148.137405077
 31
0.0
  0
LINE
  5
9B
330
1F
100
AcDbEntity
  8
0
  6
Continuous
 62
     7
370
    25
100
AcDbLine
 10
127.3323425481
 20
148.137405077
 30
0.0
 11
127.3323425481
 21
137.137405077
 31
0.0
  0
LINE
  5
9C
330
1F
100
AcDbEntity
  8
0
  6
Continuous
 62
     7
370
    25
100
AcDbLine
 10
152.3323425481
 20
155.137405077
 30
0.0
 11
152.3323425481
 21
169.637405077
 31
0.0
  0
LINE
  5
9D
330
1F
100
AcDbEntity
  8
0
  6
Continuous
 62
     7
370
    25
100
AcDbLine
 10
127.3323425481
 20
169.637405077
 30
0.0
 11
127.3323425481
 21
155.137405077
 31
0.0
  0
ARC
  5
9E
330
1F
100
AcDbEntity
  8
0
  6
Continuous
 62
     7
370
    25
100
AcDbCircle
 10
151.8323425481
 20
169.637405077
 30
0.0
 40
0.5
100
AcDbArc
 50
0.0
 51
90.0
  0
ARC
  5
9F
330
1F
100
AcDbEntity
  8
0
  6
Continuous
 62
     7
370
    25
100
AcDbCircle
 10
127.8323425481
 20
169.637405077
 30
0.0
 40
0.5
100
AcDbArc
 50
90.0
 51
180.0
  0
LINE
  5
A0
330
1F
100
AcDbEntity
  8
0
  6
Continuous
 62
     7
370
    25
100
AcDbLine
 10
149.8323425481
 20
170.137405077
 30
0.0
 11
149.8323425481
 21
212.137405077
 31
0.0
  0
LINE
  5
A1
330
1F
100
AcDbEntity
  8
0
  6
Continuous
 62
     7
370
    25
100
AcDbLine
 10
129.8323425481
 20
212.137405077
 30
0.0
 11
129.8323425481
 21
170.137405077
 31
0.0
  0
LINE
  5
A2
330
1F
100
AcDbEntity
  8
0
  6
Continuous
 62
     7
370
    25
100
AcDbLine
 10
139.8323425481
 20
155.137405077
 30
0.0
 11
139.8323425481
 21
148.137405077
 31
0.0
  0
LINE
  5
A3
330
1F
100
AcDbEntity
  8
0
  6
Continuous
 62
     7
370
    25
100
AcDbLine
 10
139.8323425481
 20
155.137405077
 30
0.0
 11
153.3323425481
 21
155.137405077
 31
0.0
  0
LINE
  5
A4
330
1F
100
AcDbEntity
  8
0
  6
Continuous
 62
     7
370
    25
100
AcDbLine
 10
153.3323425481
 20
155.137405077
 30
0.0
 11
153.3323425481
 21
148.137405077
 31
0.0
  0
LINE
  5
A5
330
1F
100
AcDbEntity
  8
0
  6
Continuous
 62
     7
370
    25
100
AcDbLine
 10
139.8323425481
 20
148.137405077
 30
0.0
 11
153.3323425481
 21
148.137405077
 31
0.0
  0
LINE
  5
A6
330
1F
100
AcDbEntity
  8
0
  6
Continuous
 62
     7
370
    25
100
AcDbLine
 10
126.3323425481
 20
155.137405077
 30
0.0
 11
126.3323425481
 21
148.137405077
 31
0.0
  0
LINE
  5
A7
330
1F
100
AcDbEntity
  8
0
  6
Continuous
 62
     7
370
    25
100
AcDbLine
 10
126.3323425481
 20
155.137405077
 30
0.0
 11
139.8323425481
 21
155.137405077
 31
0.0
  0
LINE
  5
A8
330
1F
100
AcDbEntity
  8
0
  6
Continuous
 62
     7
370
    25
100
AcDbLine
 10
126.3323425481
 20
148.137405077
 30
0.0
 11
139.8323425481
 21
148.137405077
 31
0.0
  0
LINE
  5
A9
330
1F
100
AcDbEntity
  8
0
  6
Continuous
 62
     7
370
    25
100
AcDbLine
 10
152.3323425481
 20
137.137405077
 30
0.0
 11
127.3323425481
 21
137.137405077
 31
0.0
  0
LINE
  5
AA
330
1F
100
AcDbEntity
  8
0
  6
Continuous
 62
     7
370
    25
100
AcDbLine
 10
151.8323425481
 20
170.137405077
 30
0.0
 11
127.8323425481
 21
170.137405077
 31
0.0
  0
LINE
  5
AB
330
1F
100
AcDbEntity
  8
0
  6
Continuous
 62
     7
370
    25
100
AcDbLine
 10
149.8323425481
 20
212.137405077
 30
0.0
 11
129.8323425481
 21
212.137405077
 31
0.0
  0
LINE
  5
AC
330
1F
100
AcDbEntity
  8
0
  6
Continuous
 62
     1
370
    25
100
AcDbLine
 10
152.3323425481
 20
169.637405077
 30
0.0
 11
127.3323425481
 21
169.637405077
 31
0.0
  0
LINE
  5
AD
330
1F
100
AcDbEntity
  8
0
  6
Continuous
 62
     7
370
    25
100
AcDbLine
 10
193.119244041
 20
96.2440552885
 30
0.0
 11
204.119244041
 21
96.2440552885
 31
0.0
  0
LINE
  5
AE
330
1F
100
AcDbEntity
  8
0
  6
Continuous
 62
     7
370
    25
100
AcDbLine
 10
204.119244041
 20
121.2440552885
 30
0.0
 11
193.119244041
 21
121.2440552885
 31
0.0
  0
LINE
  5
AF
330
1F
100
AcDbEntity
  8
0
  6
Continuous
 62
     7
370
    25
100
AcDbLine
 10
211.119244041
 20
96.2440552885
 30
0.0
 11
225.619244041
 21
96.2440552885
 31
0.0
  0
LINE
  5
B0
330
1F
100
AcDbEntity
  8
0
  6
Continuous
 62
     7
370
    25
100
AcDbLine
 10
225.619244041
 20
121.2440552885
 30
0.0
 11
211.119244041
 21
121.2440552885
 31
0.0
  0
ARC
  5
B1
330
1F
100
AcDbEntity
  8
0
  6
Continuous
 62
     7
370
    25
100
AcDbCircle
 10
225.619244041
 20
96.7440552885
 30
0.0
 40
0.5
100
AcDbArc
 50
270.0
 51
0.0
  0
ARC
  5
B2
330
1F
100
AcDbEntity
  8
0
  6
Continuous
 62
     7
370
    25
100
AcDbCircle
 10
225.619244041
 20
120.7440552885
 30
0.0
 40
0.5
100
AcDbArc
 50
0.0
 51
90.0
  0
LINE
  5
B3
330
1F
100
AcDbEntity
  8
0
  6
Continuous
 62
     7
370
    25
100
AcDbLine
 10
226.119244041
 20
98.7440552885
 30
0.0
 11
268.119244041
 21
98.7440552885
 31
0.0
  0
LINE
  5
B4
330
1F
100
AcDbEntity
  8
0
  6
Continuous
 62
     7
370
    25
100
AcDbLine
 10
268.119244041
 20
118.7440552885
 30
0.0
 11
226.119244041
 21
118.7440552885
 31
0.0
  0
LINE
  5
B5
330
1F
100
AcDbEntity
  8
0
  6
Continuous
 62
     7
370
    25
100
AcDbLine
 10
211.119244041
 20
116.5382839225
 30
0.0
 11
204.119244041
 21
116.5382839225
 31
0.0
  0
LINE
  5
B6
330
1F
100
AcDbEntity
  8
0
  6
Continuous
 62
     7
370
    25
100
AcDbLine
 10
211.119244041
 20
116.5382839225
 30
0.0
 11
211.119244041
 21
100.9498266544
 31
0.0
  0
LINE
  5
B7
330
1F
100
AcDbEntity
  8
0
  6
Continuous
 62
     7
370
    25
100
AcDbLine
 10
211.119244041
 20
100.9498266544
 30
0.0
 11
204.119244041
 21
100.9498266544
 31
0.0
  0
LINE
  5
B8
330
1F
100
AcDbEntity
  8
0
  6
Continuous
 62
     7
370
    25
100
AcDbLine
 10
204.119244041
 20
116.5382839225
 30
0.0
 11
204.119244041
 21
100.9498266544
 31
0.0
  0
LINE
  5
B9
330
1F
100
AcDbEntity
  8
0
  6
Continuous
 62
     7
370
    25
100
AcDbLine
 10
211.119244041
 20
100.9498266544
 30
0.0
 11
211.119244041
 21
93.1555980203
 31
0.0
  0
LINE
  5
BA
330
1F
100
AcDbEntity
  8
0
  6
Continuous
 62
     7
370
    25
100
AcDbLine
 10
211.119244041
 20
93.1555980203
 30
0.0
 11
204.119244041
 21
93.1555980203
 31
0.0
  0
LINE
  5
BB
330
1F
100
AcDbEntity
  8
0
  6
Continuous
 62
     7
370
    25
100
AcDbLine
 10
204.119244041
 20
100.9498266544
 30
0.0
 11
204.119244041
 21
93.1555980203
 31
0.0
  0
LINE
  5
BC
330
1F
100
AcDbEntity
  8
0
  6
Continuous
 62
     7
370
    25
100
AcDbLine
 10
211.119244041
 20
124.3325125566
 30
0.0
 11
204.119244041
 21
124.3325125566
 31
0.0
  0
LINE
  5
BD
330
1F
100
AcDbEntity
  8
0
  6
Continuous
 62
     7
370
    25
100
AcDbLine
 10
211.119244041
 20
124.3325125566
 30
0.0
 11
211.119244041
 21
116.5382839225
 31
0.0
  0
LINE
  5
BE
330
1F
100
AcDbEntity
  8
0
  6
Continuous
 62
     7
370
    25
100
AcDbLine
 10
204.119244041
 20
124.3325125566
 30
0.0
 11
204.119244041
 21
116.5382839225
 31
0.0
  0
LINE
  5
BF
330
1F
100
AcDbEntity
  8
0
  6
Continuous
 62
     7
370
    25
100
AcDbLine
 10
193.119244041
 20
108.7440552885
 30
0.0
 11
193.119244041
 21
121.2440552885
 31
0.0
  0
LINE
  5
C0
330
1F
100
AcDbEntity
  8
0
  6
Continuous
 62
     7
370
    25
100
AcDbLine
 10
193.119244041
 20
96.2440552885
 30
0.0
 11
193.119244041
 21
108.7440552885
 31
0.0
  0
LINE
  5
C1
330
1F
100
AcDbEntity
  8
0
  6
Continuous
 62
     7
370
    25
100
AcDbLine
 10
226.119244041
 20
108.7440552885
 30
0.0
 11
226.119244041
 21
120.7440552885
 31
0.0
  0
LINE
  5
C2
330
1F
100
AcDbEntity
  8
0
  6
Continuous
 62
     7
370
    25
100
AcDbLine
 10
226.119244041
 20
96.7440552885
 30
0.0
 11
226.119244041
 21
108.7440552885
 31
0.0
  0
LINE
  5
C3
330
1F
100
AcDbEntity
  8
0
  6
Continuous
 62
     7
370
    25
100
AcDbLine
 10
268.119244041
 20
108.7440552885
 30
0.0
 11
268.119244041
 21
118.7440552885
 31
0.0
  0
LINE
  5
C4
330
1F
100
AcDbEntity
  8
0
  6
Continuous
 62
     7
370
    25
100
AcDbLine
 10
268.119244041
 20
98.7440552885
 30
0.0
 11
268.119244041
 21
108.7440552885
 31
0.0
  0
LINE
  5
C5
330
1F
100
AcDbEntity
  8
0
  6
Continuous
 62
     1
370
    25
100
AcDbLine
 10
225.619244041
 20
108.7440552885
 30
0.0
 11
225.619244041
 21
121.2440552885
 31
0.0
  0
LINE
  5
C6
330
1F
100
AcDbEntity
  8
0
  6
Continuous
 62
     1
370
    25
100
AcDbLine
 10
225.619244041
 20
96.2440552885
 30
0.0
 11
225.619244041
 21
108.7440552885
 31
0.0
  0
LINE
  5
C7
330
1F
100
AcDbEntity
  8
0
  6
Continuous
 62
     7
370
    25
100
AcDbLine
 10
86.6317308965
 20
121.2440552885
 30
0.0
 11
75.6317308965
 21
121.2440552885
 31
0.0
  0
LINE
  5
C8
330
1F
100
AcDbEntity
  8
0
  6
Continuous
 62
     7
370
    25
100
AcDbLine
 10
75.6317308965
 20
96.2440552885
 30
0.0
 11
86.6317308965
 21
96.2440552885
 31
0.0
  0
LINE
  5
C9
330
1F
100
AcDbEntity
  8
0
  6
Continuous
 62
     7
370
    25
100
AcDbLine
 10
68.6317308965
 20
121.2440552885
 30
0.0
 11
54.1317308965
 21
121.2440552885
 31
0.0
  0
LINE
  5
CA
330
1F
100
AcDbEntity
  8
0
  6
Continuous
 62
     7
370
    25
100
AcDbLine
 10
54.1317308965
 20
96.2440552885
 30
0.0
 11
68.6317308965
 21
96.2440552885
 31
0.0
  0
ARC
  5
CB
330
1F
100
AcDbEntity
  8
0
  6
Continuous
 62
     7
370
    25
100
AcDbCircle
 10
54.1317308965
 20
120.7440552885
 30
0.0
 40
0.5
100
AcDbArc
 50
90.0
 51
180.0
  0
ARC
  5
CC
330
1F
100
AcDbEntity
  8
0
  6
Continuous
 62
     7
370
    25
100
AcDbCircle
 10
54.1317308965
 20
96.7440552885
 30
0.0
 40
0.5
100
AcDbArc
 50
180.0
 51
270.0
  0
LINE
  5
CD
330
1F
100
AcDbEntity
  8
0
  6
Continuous
 62
     7
370
    25
100
AcDbLine
 10
53.6317308965
 20
118.7440552885
 30
0.0
 11
11.6317308965
 21
118.7440552885
 31
0.0
  0
LINE
  5
CE
330
1F
100
AcDbEntity
  8
0
  6
Continuous
 62
     7
370
    25
100
AcDbLine
 10
11.6317308965
 20
98.7440552885
 30
0.0
 11
53.6317308965
 21
98.7440552885
 31
0.0
  0
LINE
  5
CF
330
1F
100
AcDbEntity
  8
0
  6
Continuous
 62
     7
370
    25
100
AcDbLine
 10
68.6317308965
 20
93.1555980203
 30
0.0
 11
75.6317308965
 21
93.1555980203
 31
0.0
  0
LINE
  5
D0
330
1F
100
AcDbEntity
  8
0
  6
Continuous
 62
     7
370
    25
100
AcDbLine
 10
68.6317308965
 20
93.1555980203
 30
0.0
 11
68.6317308965
 21
100.9498266544
 31
0.0
  0
LINE
  5
D1
330
1F
100
AcDbEntity
  8
0
  6
Continuous
 62
     7
370
    25
100
AcDbLine
 10
68.6317308965
 20
100.9498266544
 30
0.0
 11
75.6317308965
 21
100.9498266544
 31
0.0
  0
LINE
  5
D2
330
1F
100
AcDbEntity
  8
0
  6
Continuous
 62
     7
370
    25
100
AcDbLine
 10
75.6317308965
 20
93.1555980203
 30
0.0
 11
75.6317308965
 21
100.9498266544
 31
0.0
  0
LINE
  5
D3
330
1F
100
AcDbEntity
  8
0
  6
Continuous
 62
     7
370
    25
100
AcDbLine
 10
68.6317308965
 20
100.9498266544
 30
0.0
 11
68.6317308965
 21
116.5382839225
 31
0.0
  0
LINE
  5
D4
330
1F
100
AcDbEntity
  8
0
  6
Continuous
 62
     7
370
    25
100
AcDbLine
 10
68.6317308965
 20
116.5382839225
 30
0.0
 11
75.6317308965
 21
116.5382839225
 31
0.0
  0
LINE
  5
D5
330
1F
100
AcDbEntity
  8
0
  6
Continuous
 62
     7
370
    25
100
AcDbLine
 10
75.6317308965
 20
100.9498266544
 30
0.0
 11
75.6317308965
 21
116.5382839225
 31
0.0
  0
LINE
  5
D6
330
1F
100
AcDbEntity
  8
0
  6
Continuous
 62
     7
370
    25
100
AcDbLine
 10
68.6317308965
 20
116.5382839225
 30
0.0
 11
68.6317308965
 21
124.3325125566
 31
0.0
  0
LINE
  5
D7
330
1F
100
AcDbEntity
  8
0
  6
Continuous
 62
     7
370
    25
100
AcDbLine
 10
68.6317308965
 20
124.3325125566
 30
0.0
 11
75.6317308965
 21
124.3325125566
 31
0.0
  0
LINE
  5
D8
330
1F
100
AcDbEntity
  8
0
  6
Continuous
 62
     7
370
    25
100
AcDbLine
 10
75.6317308965
 20
116.5382839225
 30
0.0
 11
75.6317308965
 21
124.3325125566
 31
0.0
  0
LINE
  5
D9
330
1F
100
AcDbEntity
  8
0
  6
Continuous
 62
     7
370
    25
100
AcDbLine
 10
86.6317308965
 20
121.2440552885
 30
0.0
 11
86.6317308965
 21
96.2440552885
 31
0.0
  0
LINE
  5
DA
330
1F
100
AcDbEntity
  8
0
  6
Continuous
 62
     7
370
    25
100
AcDbLine
 10
53.6317308965
 20
120.7440552885
 30
0.0
 11
53.6317308965
 21
96.7440552885
 31
0.0
  0
LINE
  5
DB
330
1F
100
AcDbEntity
  8
0
  6
Continuous
 62
     7
370
    25
100
AcDbLine
 10
11.6317308965
 20
118.7440552885
 30
0.0
 11
11.6317308965
 21
98.7440552885
 31
0.0
  0
LINE
  5
DC
330
1F
100
AcDbEntity
  8
0
  6
Continuous
 62
     1
370
    25
100
AcDbLine
 10
54.1317308965
 20
121.2440552885
 30
0.0
 11
54.1317308965
 21
96.2440552885
 31
0.0
  0
LINE
  5
DD
330
1F
100
AcDbEntity
  8
0
  6
Continuous
 62
     7
370
    25
100
AcDbLine
 10
229.6743011878
 20
46.3727606281
 30
0.0
 11
199.9758163779
 21
63.5173309764
 31
0.0
  0
LINE
  5
DE
330
1F
100
AcDbEntity
  8
0
  6
Continuous
 62
     7
370
    25
100
AcDbLine
 10
189.9766290516
 20
46.1963537287
 30
0.0
 11
219.6751138614
 21
29.0517833805
 31
0.0
  0
SPLINE
  5
DF
330
1F
100
AcDbEntity
  8
0
  6
Continuous
 62
     7
370
    25
100
AcDbSpline
210
0.0
220
0.0
230
1.0
 70
     8
 71
     3
 72
    18
 73
    14
 74
     0
 42
0.00000001
 43
0.00000001
 40
0.0
 40
0.0
 40
0.0
 40
0.0
 40
0.0132957395799281
 40
0.1140084422294525
 40
0.2147277886035536
 40
0.3156897823676402
 40
0.4171089937257018
 40
0.5191255543346182
 40
0.6217931160756898
 40
0.725085587457259
 40
0.8289182795317475
 40
0.9331752773566514
 40
1.0
 40
1.0
 40
1.0
 40
1.0
 10
231.2294706559618
 20
48.35778669863812
 30
0.0
 10
231.2112720331863
 20
48.36912493459741
 30
0.0
 10
231.055222298542
 20
48.46634815498138
 30
0.0
 10
230.7362150455075
 20
48.6058067668963
 30
0.0
 10
230.27377315606
 20
48.77171217307351
 30
0.0
 10
229.7873402639616
 20
48.88548718475845
 30
0.0
 10
229.2818797236284
 20
48.95241364963623
 30
0.0
 10
228.758184339514
 20
48.97060537348273
 30
0.0
 10
228.2183906053889
 20
48.93998283044393
 30
0.0
 10
227.6646524695836
 20
48.8609226163355
 30
0.0
 10
227.0992375700616
 20
48.73119836222408
 30
0.0
 10
226.5946465736062
 20
48.58085501382279
 30
0.0
 10
226.2777335741551
 20
48.45440814890519
 30
0.0
 10
226.1539469812191
 20
48.40501785370524
 30
0.0
  0
SPLINE
  5
E0
330
1F
100
AcDbEntity
  8
0
  6
Continuous
 62
     7
370
    25
100
AcDbSpline
210
0.0
220
0.0
230
1.0
 70
     8
 71
     3
 72
    18
 73
    14
 74
     0
 42
0.00000001
 43
0.00000001
 40
0.0
 40
0.0
 40
0.0
 40
0.0
 40
0.0184065019319298
 40
0.120999331982055
 40
0.2234646528217584
 40
0.3256974131457986
 40
0.4275726119043268
 40
0.5289588396505742
 40
0.6297416299884218
 40
0.729853227403031
 40
0.8293002639029075
 40
0.9281786907082409
 40
1.0
 40
1.0
 40
1.0
 40
1.0
 10
216.1528545239291
 20
31.08514041476704
 30
0.0
 10
216.157405041033
 20
31.04738318877156
 30
0.0
 10
216.1873189014602
 20
30.7991774656068
 30
0.0
 10
216.2802651003806
 20
30.36611659167664
 30
0.0
 10
216.4336650372315
 20
29.79094898124298
 30
0.0
 10
216.6286354311588
 20
29.25076024937776
 30
0.0
 10
216.8598803836955
 20
28.74536563792486
 30
0.0
 10
217.127377333844
 20
28.27812393867487
 30
0.0
 10
217.4293598297884
 20
27.85134589727305
 30
0.0
 10
217.7637655569088
 20
27.46655708927036
 30
0.0
 10
218.1297383087437
 20
27.12740948350641
 30
0.0
 10
218.4857221438294
 20
26.85445466130995
 30
0.0
 10
218.7310262248738
 20
26.71550376428269
 30
0.0
 10
218.8342370480306
 20
26.65704066656539
 30
0.0
  0
LINE
  5
E1
330
1F
100
AcDbEntity
  8
0
  6
Continuous
 62
     7
370
    25
100
AcDbLine
 10
241.5308013213
 20
42.4148219454
 30
0.0
 11
231.2777529941
 21
48.3337807561
 31
0.0
  0
LINE
  5
E2
330
1F
100
AcDbEntity
  8
0
  6
Continuous
 62
     7
370
    25
100
AcDbLine
 10
218.7787688362
 20
26.6825591966
 30
0.0
 11
229.0318171634
 21
20.7636003858
 31
0.0
  0
LINE
  5
E3
330
1F
100
AcDbEntity
  8
0
  6
Continuous
 62
     7
370
    25
100
AcDbLine
 10
254.2587233827
 20
35.067148939
 30
0.0
 11
249.7769982567
 21
37.6543937832
 31
0.0
  0
LINE
  5
E4
330
1F
100
AcDbEntity
  8
0
  6
Continuous
 62
     7
370
    25
100
AcDbLine
 10
236.736795997
 20
16.3156107833
 30
0.0
 11
241.7597392248
 21
13.4159273794
 31
0.0
  0
LWPOLYLINE
  5
E5
330
1F
100
AcDbEntity
  8
0
  6
Continuous
 62
     7
370
    25
100
AcDbPolyline
 90
       83
 70
   128
 43
0.0
 10
187.9051549029
 20
50.7748017934
 10
187.9259028217
 20
51.4118352026
 10
187.988024821
 20
52.0690852836
 10
188.0911563444
 20
52.7426950316
 10
188.2346921749
 20
53.4287114367
 10
188.4177899873
 20
54.1231086819
 10
188.6393752908
 20
54.821811768
 10
188.8981477347
 20
55.5207204275
 10
189.1925887394
 20
56.2157331865
 10
189.5209704081
 20
56.9027714337
 10
189.8813656665
 20
57.5778033556
 10
190.2716595719
 20
58.2368675964
 10
190.6895617245
 20
58.876096505
 10
191.1326197084
 20
59.4917388321
 10
191.598233483
 20
60.0801817436
 10
192.0836706416
 20
60.6379720226
 10
192.586082446
 20
61.161836334
 10
193.1025205438
 20
61.6487004336
 10
193.6299542711
 20
62.0957072093
 10
194.1652884368
 20
62.5002334476
 10
194.7053814874
 20
62.8599052278
 10
195.247063942
 20
63.1726118527
 10
195.7871569926
 20
63.4365182355
 10
196.3224911584
 20
63.6500756687
 10
196.8499248857
 20
63.8120309123
 10
197.3663629835
 20
63.9214335486
 10
197.8687747879
 20
63.9776415594
 10
198.3542119465
 20
63.9803250937
 10
198.8198257211
 20
63.9294684035
 10
199.262883705
 20
63.8253699361
 10
199.6807858576
 20
63.6686405826
 10
200.071079763
 20
63.4602000932
 10
200.4314750214
 20
63.2012716796
 10
200.75985669
 20
62.8933748368
 10
201.0542976948
 20
62.5383164257
 10
201.3130701387
 20
62.1381800704
 10
201.5346554422
 20
61.69531393
 10
201.7177532545
 20
61.2123169192
 10
201.8612890851
 20
60.6920234566
 10
201.9644206084
 20
60.1374868309
 10
202.0265426078
 20
59.5519612837
 10
202.0472905266
 20
58.9388829117
 10
202.0265426078
 20
58.3018495025
 10
201.9644206084
 20
57.6445994215
 10
201.8612890851
 20
56.9709896735
 10
201.7177532545
 20
56.2849732684
 10
201.5346554422
 20
55.5905760233
 10
201.3130701387
 20
54.8918729371
 10
201.0542976948
 20
54.1929642776
 10
200.75985669
 20
53.4979515186
 10
200.4314750214
 20
52.8109132714
 10
200.071079763
 20
52.1358813495
 10
199.6807858576
 20
51.4768171087
 10
199.262883705
 20
50.8375882001
 10
198.8198257211
 20
50.2219458731
 10
198.3542119465
 20
49.6335029615
 10
197.8687747879
 20
49.0757126825
 10
197.3663629835
 20
48.5518483711
 10
196.8499248857
 20
48.0649842715
 10
196.3224911584
 20
47.6179774958
 10
195.7871569926
 20
47.2134512575
 10
195.247063942
 20
46.8537794773
 10
194.7053814874
 20
46.5410728525
 10
194.1652884368
 20
46.2771664696
 10
193.6299542711
 20
46.0636090364
 10
193.1025205438
 20
45.9016537928
 10
192.586082446
 20
45.7922511565
 10
192.0836706416
 20
45.7360431457
 10
191.598233483
 20
45.7333596114
 10
191.1326197084
 20
45.7842163016
 10
190.6895617245
 20
45.8883147691
 10
190.2716595719
 20
46.0450441225
 10
189.8813656665
 20
46.2534846119
 10
189.5209704081
 20
46.5124130255
 10
189.1925887394
 20
46.8203098683
 10
188.8981477347
 20
47.1753682794
 10
188.6393752908
 20
47.5755046347
 10
188.4177899873
 20
48.0183707751
 10
188.2346921749
 20
48.5013677859
 10
188.0911563444
 20
49.0216612486
 10
187.988024821
 20
49.5761978742
 10
187.9259028217
 20
50.1617234214
 10
187.9051549029
 20
50.7748017934
  0
LWPOLYLINE
  5
E6
330
1F
100
AcDbEntity
  8
0
  6
Continuous
 62
     7
370
    25
100
AcDbPolyline
 90
       43
 70
   128
 43
0.0
 10
229.6743011878
 20
46.3727606281
 10
229.7695645728
 20
46.3156297449
 10
230.1299598312
 20
46.0567013314
 10
230.4583414999
 20
45.7488044885
 10
230.7527825046
 20
45.3937460774
 10
231.0115549485
 20
44.9936097221
 10
231.233140252
 20
44.5507435817
 10
231.4162380644
 20
44.067746571
 10
231.5597738949
 20
43.5474531083
 10
231.6629054183
 20
42.9929164826
 10
231.7250274176
 20
42.4073909354
 10
231.7457753364
 20
41.7943125634
 10
231.7250274176
 20
41.1572791542
 10
231.6629054183
 20
40.5000290732
 10
231.5597738949
 20
39.8264193253
 10
231.4162380644
 20
39.1404029202
 10
231.233140252
 20
38.446005675
 10
231.0115549485
 20
37.7473025889
 10
230.7527825046
 20
37.0483939293
 10
230.4583414999
 20
36.3533811703
 10
230.1299598312
 20
35.6663429231
 10
229.7695645728
 20
34.9913110012
 10
229.3792706674
 20
34.3322467605
 10
228.9613685148
 20
33.6930178518
 10
228.518310531
 20
33.0773755248
 10
228.0526967563
 20
32.4889326132
 10
227.5672595977
 20
31.9311423342
 10
227.0648477934
 20
31.4072780229
 10
226.5484096955
 20
30.9204139232
 10
226.0209759683
 20
30.4734071475
 10
225.4856418025
 20
30.0688809092
 10
224.9455487519
 20
29.7092091291
 10
224.4038662973
 20
29.3965025042
 10
223.8637732467
 20
29.1325961213
 10
223.3284390809
 20
28.9190386881
 10
222.8010053537
 20
28.7570834445
 10
222.2845672558
 20
28.6476808082
 10
221.7821554514
 20
28.5914727974
 10
221.2967182928
 20
28.5887892631
 10
220.8311045182
 20
28.6396459533
 10
220.3880465344
 20
28.7437444208
 10
219.9701443817
 20
28.9004737743
 10
219.6751138614
 20
29.0517833805
  0
LWPOLYLINE
  5
E7
330
1F
100
AcDbEntity
  8
0
  6
Continuous
 62
     7
370
    25
100
AcDbPolyline
 90
       69
 70
   128
 43
0.0
 10
190.0264752464
 20
51.9994139612
 10
190.0475899965
 20
52.538989415
 10
190.1107541032
 20
53.0983399728
 10
190.2154286725
 20
53.6726934529
 10
190.360720658
 20
54.2571496738
 10
190.5453904796
 20
54.8467222613
 10
190.7678625997
 20
55.4363811898
 10
191.0262389643
 20
56.0210956973
 10
191.3183151977
 20
56.5958772058
 10
191.6415994082
 20
57.1558218821
 10
191.993333449
 20
57.6961524756
 10
192.3705164493
 20
58.2122590762
 10
192.7699304167
 20
58.6997384445
 10
193.1881676921
 20
59.1544315783
 10
193.6216600225
 20
59.572459196
 10
194.0667090041
 20
59.9502548336
 10
194.5195176361
 20
60.2845952717
 10
194.9762227147
 20
60.5726280358
 10
195.4329277934
 20
60.8118957317
 10
195.8857364254
 20
61.0003570118
 10
196.330785407
 20
61.136403991
 10
196.7642777374
 20
61.2188759645
 10
197.1825150128
 20
61.2470693103
 10
197.5819289802
 20
61.2207434929
 10
197.9591119805
 20
61.1401231148
 10
198.3108460213
 20
61.0058960007
 10
198.6341302318
 20
60.8192073289
 10
198.9262064651
 20
60.5816498614
 10
199.1845828298
 20
60.2952503548
 10
199.4070549498
 20
59.9624522686
 10
199.5917247715
 20
59.5860949188
 10
199.737016757
 20
59.1693892536
 10
199.8416913263
 20
58.7158904588
 10
199.904855433
 20
58.2294676262
 10
199.925970183
 20
57.7142707439
 10
199.904855433
 20
57.1746952901
 10
199.8416913263
 20
56.6153447323
 10
199.737016757
 20
56.0409912522
 10
199.5917247715
 20
55.4565350313
 10
199.4070549498
 20
54.8669624438
 10
199.1845828298
 20
54.2773035153
 10
198.9262064651
 20
53.6925890078
 10
198.6341302318
 20
53.1178074993
 10
198.3108460213
 20
52.5578628231
 10
197.9591119805
 20
52.0175322295
 10
197.5819289802
 20
51.5014256289
 10
197.1825150128
 20
51.0139462606
 10
196.7642777374
 20
50.5592531269
 10
196.330785407
 20
50.1412255091
 10
195.8857364254
 20
49.7634298715
 10
195.4329277934
 20
49.4290894334
 10
194.9762227147
 20
49.1410566694
 10
194.5195176361
 20
48.9017889735
 10
194.0667090041
 20
48.7133276933
 10
193.6216600225
 20
48.5772807141
 10
193.1881676921
 20
48.4948087406
 10
192.7699304167
 20
48.4666153948
 10
192.3705164493
 20
48.4929412122
 10
191.993333449
 20
48.5735615903
 10
191.6415994082
 20
48.7077887044
 10
191.3183151977
 20
48.8944773762
 10
191.0262389643
 20
49.1320348437
 10
190.7678625997
 20
49.4184343503
 10
190.5453904796
 20
49.7512324365
 10
190.360720658
 20
50.1275897863
 10
190.2154286725
 20
50.5442954515
 10
190.1107541032
 20
50.9977942463
 10
190.0475899965
 20
51.4842170789
 10
190.0264752464
 20
51.9994139612
  0
LINE
  5
E8
330
1F
100
AcDbEntity
  8
0
  6
Continuous
 62
     7
370
    25
100
AcDbLine
 10
231.2343831734
 20
48.3584725643
 30
0.0
 11
231.2777529941
 21
48.3337807561
 31
0.0
  0
LINE
  5
E9
330
1F
100
AcDbEntity
  8
0
  6
Continuous
 62
     7
370
    25
100
AcDbLine
 10
218.8277210891
 20
26.6547388783
 30
0.0
 11
218.7787688362
 21
26.6825591966
 31
0.0
  0
LWPOLYLINE
  5
EA
330
1F
100
AcDbEntity
  8
0
  6
Continuous
 62
     7
370
    25
100
AcDbPolyline
 90
       47
 70
   128
 43
0.0
 10
241.5308013213
 20
42.4148219454
 10
241.8972720652
 20
42.1768591286
 10
242.2858811033
 20
41.8579879024
 10
242.6411101667
 20
41.4901812787
 10
242.9612664271
 20
41.0751920236
 10
243.244824194
 20
40.6149977497
 10
243.4904321856
 20
40.1117914925
 10
243.696919968
 20
39.5679712589
 10
243.8633035329
 20
38.9861285999
 10
243.9887899867
 20
38.3690362608
 10
244.0727813294
 20
37.7196349676
 10
244.114877304
 20
37.0410194132
 10
244.114877304
 20
36.3364235097
 10
244.0727813294
 20
35.6092049776
 10
243.9887899867
 20
34.8628293443
 10
243.8633035329
 20
34.1008534295
 10
243.696919968
 20
33.3269083956
 10
243.4904321856
 20
32.544682443
 10
243.244824194
 20
31.7579032347
 10
242.9612664271
 20
30.9703201318
 10
242.6411101667
 20
30.1856863265
 10
242.2858811033
 20
29.4077409563
 10
241.8972720652
 20
28.6401912851
 10
241.4771349512
 20
27.8866950365
 10
241.0274719063
 20
27.1508429635
 10
240.5504257794
 20
26.4361417361
 10
240.0482699127
 20
25.7459972313
 10
239.5233973075
 20
25.0836983018
 10
238.9783092209
 20
24.4524011037
 10
238.4156032457
 20
23.8551140557
 10
237.8379609323
 20
23.2946835025
 10
237.2481350093
 20
22.7737801509
 10
236.6489362659
 20
22.2948863426
 10
236.0432201568
 20
21.8602842247
 10
235.4338731953
 20
21.4720448742
 10
234.823799197
 20
21.1320184285
 10
234.2159054425
 20
20.8418252682
 10
233.6130888223
 20
20.6028482962
 10
233.018222032
 20
20.4162263463
 10
232.4341398829
 20
20.2828487573
 10
231.8636257925
 20
20.2033511341
 10
231.30939852
 20
20.1781123189
 10
230.774099211
 20
20.2072525864
 10
230.2602788103
 20
20.2906330698
 10
229.7703859062
 20
20.4278564232
 10
229.3067550614
 20
20.6182687148
 10
229.0318171634
 20
20.7636003858
  0
LINE
  5
EB
330
1F
100
AcDbEntity
  8
0
  6
Continuous
 62
     7
370
    25
100
AcDbLine
 10
225.7353676964
 20
22.6666001567
 30
0.0
 11
225.7353676964
 21
19.7141506339
 31
0.0
  0
LINE
  5
EC
330
1F
100
AcDbEntity
  8
0
  6
Continuous
 62
     7
370
    25
100
AcDbLine
 10
244.8272507884
 20
43.4642716973
 30
0.0
 11
238.775569956
 21
44.0053831565
 31
0.0
  0
LINE
  5
ED
330
1F
100
AcDbEntity
  8
0
  6
Continuous
 62
     7
370
    25
100
AcDbLine
 10
244.8272507884
 20
30.7356601435
 30
0.0
 11
244.8272507884
 21
43.4642716973
 31
0.0
  0
LINE
  5
EE
330
1F
100
AcDbEntity
  8
0
  6
Continuous
 62
     7
370
    25
100
AcDbLine
 10
235.2813092424
 20
18.8605996118
 30
0.0
 11
244.8272507884
 21
30.7356601435
 31
0.0
  0
LINE
  5
EF
330
1F
100
AcDbEntity
  8
0
  6
Continuous
 62
     7
370
    25
100
AcDbLine
 10
225.7353676964
 20
19.7141506339
 30
0.0
 11
235.2813092424
 21
18.8605996118
 31
0.0
  0
LINE
  5
F0
330
1F
100
AcDbEntity
  8
0
  6
Continuous
 62
     7
370
    25
100
AcDbLine
 10
235.2813092424
 20
18.8605996118
 30
0.0
 11
240.2310567107
 21
16.0031712205
 31
0.0
  0
LINE
  5
F1
330
1F
100
AcDbEntity
  8
0
  6
Continuous
 62
     7
370
    25
100
AcDbLine
 10
244.8272507884
 20
30.7356601435
 30
0.0
 11
249.7769982567
 21
27.8782317522
 31
0.0
  0
LINE
  5
F2
330
1F
100
AcDbEntity
  8
0
  6
Continuous
 62
     7
370
    25
100
AcDbLine
 10
240.2310567107
 20
16.0031712205
 30
0.0
 11
249.7769982567
 21
27.8782317522
 31
0.0
  0
LINE
  5
F3
330
1F
100
AcDbEntity
  8
0
  6
Continuous
 62
     7
370
    25
100
AcDbLine
 10
244.8272507884
 20
43.4642716973
 30
0.0
 11
249.7769982567
 21
40.6068433059
 31
0.0
  0
LINE
  5
F4
330
1F
100
AcDbEntity
  8
0
  6
Continuous
 62
     7
370
    25
100
AcDbLine
 10
249.7769982567
 20
27.8782317522
 30
0.0
 11
249.7769982567
 21
40.6068433059
 31
0.0
  0
LWPOLYLINE
  5
F5
330
1F
100
AcDbEntity
  8
0
  6
Continuous
 62
     7
370
    25
100
AcDbPolyline
 90
       47
 70
   128
 43
0.0
 10
254.2587233827
 20
35.067148939
 10
254.6251941265
 20
34.8291861222
 10
255.0138031647
 20
34.510314896
 10
255.3690322281
 20
34.1425082723
 10
255.6891884884
 20
33.7275190172
 10
255.9727462554
 20
33.2673247433
 10
256.218354247
 20
32.7641184861
 10
256.4248420294
 20
32.2202982525
 10
256.5912255942
 20
31.6384555935
 10
256.716712048
 20
31.0213632544
 10
256.8007033908
 20
30.3719619612
 10
256.8427993653
 20
29.6933464068
 10
256.8427993653
 20
28.9887505033
 10
256.8007033908
 20
28.2615319712
 10
256.716712048
 20
27.5151563379
 10
256.5912255942
 20
26.7531804231
 10
256.4248420294
 20
25.9792353892
 10
256.218354247
 20
25.1970094366
 10
255.9727462554
 20
24.4102302283
 10
255.6891884884
 20
23.6226471254
 10
255.3690322281
 20
22.8380133201
 10
255.0138031647
 20
22.0600679499
 10
254.6251941265
 20
21.2925182787
 10
254.2050570126
 20
20.5390220301
 10
253.7553939676
 20
19.8031699571
 10
253.2783478407
 20
19.0884687297
 10
252.776191974
 20
18.3983242249
 10
252.2513193689
 20
17.7360252954
 10
251.7062312822
 20
17.1047280973
 10
251.1435253071
 20
16.5074410493
 10
250.5658829937
 20
15.9470104961
 10
249.9760570707
 20
15.4261071445
 10
249.3768583272
 20
14.9472133362
 10
248.7711422182
 20
14.5126112183
 10
248.1617952566
 20
14.1243718678
 10
247.5517212584
 20
13.7843454221
 10
246.9438275039
 20
13.4941522618
 10
246.3410108836
 20
13.2551752898
 10
245.7461440934
 20
13.0685533399
 10
245.1620619443
 20
12.9351757509
 10
244.5915478538
 20
12.8556781277
 10
244.0373205814
 20
12.8304393125
 10
243.5020212723
 20
12.85957958
 10
242.9882008716
 20
12.9429600634
 10
242.4983079675
 20
13.0801834168
 10
242.0346771228
 20
13.2705957084
 10
241.7597392248
 20
13.4159273794
  0
LINE
  5
F6
330
1F
100
AcDbEntity
  8
0
  6
Continuous
 62
     7
370
    25
100
AcDbLine
 10
225.7353676964
 20
19.7141506339
 30
0.0
 11
230.6851151647
 21
16.8567222425
 31
0.0
  0
LINE
  5
F7
330
1F
100
AcDbEntity
  8
0
  6
Continuous
 62
     7
370
    25
100
AcDbLine
 10
230.6851151647
 20
16.8567222425
 30
0.0
 11
240.2310567107
 21
16.0031712205
 31
0.0
  0
LWPOLYLINE
  5
F8
330
1F
100
AcDbEntity
  8
0
  6
Continuous
 62
     1
370
    25
100
AcDbPolyline
 90
       64
 70
   128
 43
0.0
 10
226.3574068859
 20
48.2875629508
 10
226.7274828793
 20
48.4047467135
 10
227.2968036713
 20
48.5448934092
 10
227.8533498744
 20
48.6322646624
 10
228.3944100514
 20
48.666434809
 10
228.9173482117
 20
48.6472373756
 10
229.419616653
 20
48.57476589
 10
229.898768374
 20
48.4493734261
 10
230.3524689956
 20
48.2716708834
 10
230.7785081341
 20
48.0425240108
 10
231.1748101696
 20
47.7630491888
 10
231.5394443584
 20
47.4346079906
 10
231.8706342393
 20
47.0588005488
 10
232.1667662887
 20
46.6374577594
 10
232.4263977808
 20
46.1726323622
 10
232.6482638172
 20
45.6665889398
 10
232.8312834889
 20
45.1217928848
 10
232.9745651423
 20
44.5408983889
 10
233.0774107238
 20
43.9267355117
 10
233.1393191799
 20
43.2822963929
 10
233.1599888988
 20
42.6107206752
 10
233.1393191799
 20
41.915280208
 10
233.0774107238
 20
41.1993631073
 10
232.9745651423
 20
40.4664572492
 10
232.8312834889
 20
39.7201332775
 10
232.6482638172
 20
38.9640272075
 10
232.4263977808
 20
38.201822712
 10
232.1667662887
 20
37.4372331746
 10
231.8706342393
 20
36.6739835988
 10
231.5394443584
 20
35.9157924597
 10
231.1748101696
 20
35.1663535883
 10
230.7785081341
 20
34.4293181756
 10
230.3524689956
 20
33.708276984
 10
229.898768374
 20
33.0067428535
 10
229.419616653
 20
32.3281335881
 10
228.9173482117
 20
31.6757553039
 10
228.3944100514
 20
31.0527863222
 10
227.8533498744
 20
30.4622616854
 10
227.2968036713
 20
29.9070583701
 10
226.7274828793
 20
29.389881271
 10
226.1481611722
 20
28.913250023
 10
225.561660947
 20
28.4794867257
 10
224.9708395739
 20
28.0907046301
 10
224.3785754752
 20
27.7487978436
 10
223.7877541021
 20
27.4554321017
 10
223.2012538769
 20
27.2120366528
 10
222.6219321698
 20
27.0197972951
 10
222.0526113779
 20
26.8796505993
 10
221.4960651748
 20
26.7922793461
 10
220.9550049977
 20
26.7581091995
 10
220.4320668375
 20
26.777306633
 10
219.9297983961
 20
26.8497781185
 10
219.4506466752
 20
26.9751705824
 10
218.9969460535
 20
27.1528731251
 10
218.570906915
 20
27.3820199978
 10
218.1746048795
 20
27.6614948198
 10
217.8099706908
 20
27.989936018
 10
217.4787808098
 20
28.3657434598
 10
217.1826487605
 20
28.7870862491
 10
216.9230172683
 20
29.2519116463
 10
216.7011512319
 20
29.7579550688
 10
216.5181315603
 20
30.3027511237
 10
216.3748499068
 20
30.8836456196
 10
216.3582195596
 20
30.9665857032
  0
LWPOLYLINE
  5
F9
330
1F
100
AcDbEntity
  8
0
  6
Continuous
 62
     1
370
    25
100
AcDbPolyline
 90
       47
 70
   128
 43
0.0
 10
231.2777529941
 20
48.3337807561
 10
231.644223738
 20
48.0958179393
 10
232.0328327761
 20
47.7769467131
 10
232.3880618395
 20
47.4091400894
 10
232.7082180999
 20
46.9941508343
 10
232.9917758668
 20
46.5339565605
 10
233.2373838584
 20
46.0307503032
 10
233.4438716408
 20
45.4869300696
 10
233.6102552057
 20
44.9050874106
 10
233.7357416595
 20
44.2879950715
 10
233.8197330022
 20
43.6385937783
 10
233.8618289768
 20
42.9599782239
 10
233.8618289768
 20
42.2553823204
 10
233.8197330022
 20
41.5281637883
 10
233.7357416595
 20
40.781788155
 10
233.6102552057
 20
40.0198122402
 10
233.4438716408
 20
39.2458672063
 10
233.2373838584
 20
38.4636412537
 10
232.9917758668
 20
37.6768620454
 10
232.7082180999
 20
36.8892789425
 10
232.3880618395
 20
36.1046451373
 10
232.0328327761
 20
35.326699767
 10
231.644223738
 20
34.5591500958
 10
231.224086624
 20
33.8056538472
 10
230.774423579
 20
33.0698017742
 10
230.2973774522
 20
32.3551005468
 10
229.7952215855
 20
31.664956042
 10
229.2703489803
 20
31.0026571125
 10
228.7252608937
 20
30.3713599145
 10
228.1625549185
 20
29.7740728664
 10
227.5849126051
 20
29.2136423132
 10
226.9950866821
 20
28.6927389616
 10
226.3958879387
 20
28.2138451533
 10
225.7901718296
 20
27.7792430354
 10
225.1808248681
 20
27.3910036849
 10
224.5707508698
 20
27.0509772392
 10
223.9628571153
 20
26.760784079
 10
223.360040495
 20
26.5218071069
 10
222.7651737048
 20
26.3351851571
 10
222.1810915557
 20
26.201807568
 10
221.6105774653
 20
26.1223099448
 10
221.0563501928
 20
26.0970711297
 10
220.5210508838
 20
26.1262113971
 10
220.0072304831
 20
26.2095918806
 10
219.517337579
 20
26.3468152339
 10
219.0537067342
 20
26.5372275255
 10
218.8277210891
 20
26.6547388783
  0
LINE
  5
FA
330
1F
100
AcDbEntity
  8
0
  6
Continuous
 62
     7
370
    25
100
AcDbLine
 10
127.3323425481
 20
79.7235730841
 30
0.0
 11
127.3323425481
 21
68.7235730841
 31
0.0
  0
LINE
  5
FB
330
1F
100
AcDbEntity
  8
0
  6
Continuous
 62
     7
370
    25
100
AcDbLine
 10
152.3323425481
 20
68.7235730841
 30
0.0
 11
152.3323425481
 21
79.7235730841
 31
0.0
  0
LINE
  5
FC
330
1F
100
AcDbEntity
  8
0
  6
Continuous
 62
     7
370
    25
100
AcDbLine
 10
127.3323425481
 20
61.7235730841
 30
0.0
 11
127.3323425481
 21
47.2235730841
 31
0.0
  0
LINE
  5
FD
330
1F
100
AcDbEntity
  8
0
  6
Continuous
 62
     7
370
    25
100
AcDbLine
 10
152.3323425481
 20
47.2235730841
 30
0.0
 11
152.3323425481
 21
61.7235730841
 31
0.0
  0
ARC
  5
FE
330
1F
100
AcDbEntity
  8
0
  6
Continuous
 62
     7
370
    25
100
AcDbCircle
 10
127.8323425481
 20
47.2235730841
 30
0.0
 40
0.5000000000000071
100
AcDbArc
 50
180.0
 51
270.0
  0
ARC
  5
FF
330
1F
100
AcDbEntity
  8
0
  6
Continuous
 62
     7
370
    25
100
AcDbCircle
 10
151.8323425481
 20
47.2235730841
 30
0.0
 40
0.5000000000000071
100
AcDbArc
 50
270.0
 51
0.0
  0
LINE
  5
100
330
1F
100
AcDbEntity
  8
0
  6
Continuous
 62
     7
370
    25
100
AcDbLine
 10
129.8323425481
 20
46.7235730841
 30
0.0
 11
129.8323425481
 21
4.7235730841
 31
0.0
  0
LINE
  5
101
330
1F
100
AcDbEntity
  8
0
  6
Continuous
 62
     7
370
    25
100
AcDbLine
 10
149.8323425481
 20
4.7235730841
 30
0.0
 11
149.8323425481
 21
46.7235730841
 31
0.0
  0
LINE
  5
102
330
1F
100
AcDbEntity
  8
0
  6
Continuous
 62
     7
370
    25
100
AcDbLine
 10
139.8323425481
 20
61.7235730841
 30
0.0
 11
139.8323425481
 21
68.7235730841
 31
0.0
  0
LINE
  5
103
330
1F
100
AcDbEntity
  8
0
  6
Continuous
 62
     7
370
    25
100
AcDbLine
 10
139.8323425481
 20
61.7235730841
 30
0.0
 11
126.3323425481
 21
61.7235730841
 31
0.0
  0
LINE
  5
104
330
1F
100
AcDbEntity
  8
0
  6
Continuous
 62
     7
370
    25
100
AcDbLine
 10
126.3323425481
 20
61.7235730841
 30
0.0
 11
126.3323425481
 21
68.7235730841
 31
0.0
  0
LINE
  5
105
330
1F
100
AcDbEntity
  8
0
  6
Continuous
 62
     7
370
    25
100
AcDbLine
 10
139.8323425481
 20
68.7235730841
 30
0.0
 11
126.3323425481
 21
68.7235730841
 31
0.0
  0
LINE
  5
106
330
1F
100
AcDbEntity
  8
0
  6
Continuous
 62
     7
370
    25
100
AcDbLine
 10
153.3323425481
 20
61.7235730841
 30
0.0
 11
153.3323425481
 21
68.7235730841
 31
0.0
  0
LINE
  5
107
330
1F
100
AcDbEntity
  8
0
  6
Continuous
 62
     7
370
    25
100
AcDbLine
 10
153.3323425481
 20
61.7235730841
 30
0.0
 11
139.8323425481
 21
61.7235730841
 31
0.0
  0
LINE
  5
108
330
1F
100
AcDbEntity
  8
0
  6
Continuous
 62
     7
370
    25
100
AcDbLine
 10
153.3323425481
 20
68.7235730841
 30
0.0
 11
139.8323425481
 21
68.7235730841
 31
0.0
  0
LINE
  5
109
330
1F
100
AcDbEntity
  8
0
  6
Continuous
 62
     7
370
    25
100
AcDbLine
 10
127.3323425481
 20
79.7235730841
 30
0.0
 11
152.3323425481
 21
79.7235730841
 31
0.0
  0
LINE
  5
10A
330
1F
100
AcDbEntity
  8
0
  6
Continuous
 62
     7
370
    25
100
AcDbLine
 10
127.8323425481
 20
46.7235730841
 30
0.0
 11
151.8323425481
 21
46.7235730841
 31
0.0
  0
LINE
  5
10B
330
1F
100
AcDbEntity
  8
0
  6
Continuous
 62
     7
370
    25
100
AcDbLine
 10
129.8323425481
 20
4.7235730841
 30
0.0
 11
149.8323425481
 21
4.7235730841
 31
0.0
  0
LINE
  5
10C
330
1F
100
AcDbEntity
  8
0
  6
Continuous
 62
     1
370
    25
100
AcDbLine
 10
127.3323425481
 20
47.2235730841
 30
0.0
 11
152.3323425481
 21
47.2235730841
 31
0.0
  0
ENDSEC
  0
SECTION
  2
OBJECTS
  0
DICTIONARY
  5
C
330
0
100
AcDbDictionary
281
     1
  3
ACAD_GROUP
350
D
  3
ACAD_LAYOUT
350
1A
  3
ACAD_MLINESTYLE
350
17
  3
ACAD_PLOTSETTINGS
350
19
  3
ACAD_PLOTSTYLENAME
350
E
  3
ACAD_SCALELIST
350
47
  3
DWGPROPS
350
10D
  0
DICTIONARY
  5
D
102
{ACAD_REACTORS
330
C
102
}
330
C
100
AcDbDictionary
281
     1
  0
DICTIONARY
  5
1A
102
{ACAD_REACTORS
330
C
102
}
330
C
100
AcDbDictionary
281
     1
  3
Layout1
350
1E
  3
Layout2
350
26
  3
Model
350
22
  0
DICTIONARY
  5
17
102
{ACAD_REACTORS
330
C
102
}
330
C
100
AcDbDictionary
281
     1
  3
Standard
350
18
  0
DICTIONARY
  5
19
102
{ACAD_REACTORS
330
C
102
}
330
C
100
AcDbDictionary
281
     1
  0
ACDBDICTIONARYWDFLT
  5
E
102
{ACAD_REACTORS
330
C
102
}
330
C
100
AcDbDictionary
281
     1
  3
Normal
350
F
100
AcDbDictionaryWithDefault
340
F
  0
DICTIONARY
  5
47
102
{ACAD_REACTORS
330
C
102
}
330
C
100
AcDbDictionary
281
     1
  3
A0
350
48
  3
A1
350
49
  3
A2
350
4A
  3
A3
350
4B
  3
A4
350
4C
  3
A5
350
4D
  3
A6
350
4E
  3
A7
350
4F
  3
A8
350
50
  3
A9
350
51
  3
B0
350
52
  3
B1
350
53
  3
B2
350
54
  3
B3
350
55
  3
B4
350
56
  3
B5
350
57
  3
B6
350
58
  3
B7
350
59
  3
B8
350
5A
  3
B9
350
5B
  3
C0
350
5C
  3
C1
350
5D
  3
C2
350
5E
  3
C3
350
5F
  3
C4
350
60
  3
C5
350
61
  3
C6
350
62
  3
C7
350
63
  3
C8
350
64
  3
C9
350
65
  3
D0
350
66
  3
D1
350
67
  3
D2
350
68
  0
XRECORD
  5
10D
102
{ACAD_REACTORS
330
C
102
}
330
C
100
AcDbXrecord
280
     1
  1
DWGPROPS COOKIE
  2

  3

  4

  6

  7

  8
b.kav
  9

300
=
301
=
302
=
303
=
304
=
305
=
306
=
307
=
308
=
309
=
 40
0.0
 41
2459935.584464225
 42
2459935.58446441
  1

 90
        0
  0
LAYOUT
  5
1E
102
{ACAD_REACTORS
330
1A
102
}
330
1A
100
AcDbPlotSettings
  1

  2
none_device
  4

  6

 40
0.0
 41
0.0
 42
0.0
 43
0.0
 44
0.0
 45
0.0
 46
0.0
 47
0.0
 48
0.0
 49
0.0
140
0.0
141
0.0
142
1.0
143
1.0
 70
   688
 72
     1
 73
     0
 74
     5
  7

 75
    16
147
1.0
148
0.0
149
0.0
100
AcDbLayout
  1
Layout1
 70
     1
 71
     1
 10
0.0
 20
0.0
 11
420.0
 21
297.0
 12
0.0
 22
0.0
 32
0.0
 14
1.0000000000E+20
 24
1.0000000000E+20
 34
1.0000000000E+20
 15
-1.0000000000E+20
 25
-1.0000000000E+20
 35
-1.0000000000E+20
146
0.0
 13
0.0
 23
0.0
 33
0.0
 16
1.0
 26
0.0
 36
0.0
 17
0.0
 27
1.0
 37
0.0
 76
     0
330
1B
  0
LAYOUT
  5
26
102
{ACAD_REACTORS
330
1A
102
}
330
1A
100
AcDbPlotSettings
  1

  2
none_device
  4

  6

 40
0.0
 41
0.0
 42
0.0
 43
0.0
 44
0.0
 45
0.0
 46
0.0
 47
0.0
 48
0.0
 49
0.0
140
0.0
141
0.0
142
1.0
143
1.0
 70
   688
 72
     1
 73
     0
 74
     5
  7

 75
    16
147
1.0
148
0.0
149
0.0
100
AcDbLayout
  1
Layout2
 70
     1
 71
     2
 10
0.0
 20
0.0
 11
0.0
 21
0.0
 12
0.0
 22
0.0
 32
0.0
 14
0.0
 24
0.0
 34
0.0
 15
0.0
 25
0.0
 35
0.0
146
0.0
 13
0.0
 23
0.0
 33
0.0
 16
1.0
 26
0.0
 36
0.0
 17
0.0
 27
1.0
 37
0.0
 76
     0
330
23
  0
LAYOUT
  5
22
102
{ACAD_REACTORS
330
1A
102
}
330
1A
100
AcDbPlotSettings
  1

  2
none_device
  4
Letter_(8.50_x_11.00_Inches)
  6

 40
6.35
 41
6.35
 42
6.35000508
 43
6.35000508
 44
215.9
 45
279.4
 46
0.0
 47
0.0
 48
0.0
 49
0.0
140
0.0
141
0.0
142
1.0
143
1.0
 70
  1712
 72
     1
 73
     0
 74
     0
  7

 75
     0
147
1.0
148
0.0
149
0.0
100
AcDbLayout
  1
Model
 70
     1
 71
     0
 10
0.0
 20
0.0
 11
279.4
 21
215.9
 12
0.0
 22
0.0
 32
0.0
 14
0.0
 24
0.0
 34
0.0
 15
279.4
 25
215.9
 35
0.0
146
0.0
 13
0.0
 23
0.0
 33
0.0
 16
1.0
 26
0.0
 36
0.0
 17
0.0
 27
1.0
 37
0.0
 76
     0
330
1F
331
29
  0
MLINESTYLE
  5
18
102
{ACAD_REACTORS
330
17
102
}
330
17
100
AcDbMlineStyle
  2
Standard
 70
     0
  3

 62
   256
 51
90.0
 52
90.0
 71
     2
 49
0.5
 62
   256
  6
BYLAYER
 49
-0.5
 62
   256
  6
BYLAYER
  0
ACDBPLACEHOLDER
  5
F
102
{ACAD_REACTORS
330
E
102
}
330
E
  0
SCALE
  5
48
102
{ACAD_REACTORS
330
47
102
}
330
47
100
AcDbScale
 70
     0
300
1:1
140
1.0
141
1.0
290
     1
  0
SCALE
  5
49
102
{ACAD_REACTORS
330
47
102
}
330
47
100
AcDbScale
 70
     0
300
1:2
140
1.0
141
2.0
290
     0
  0
SCALE
  5
4A
102
{ACAD_REACTORS
330
47
102
}
330
47
100
AcDbScale
 70
     0
300
1:4
140
1.0
141
4.0
290
     0
  0
SCALE
  5
4B
102
{ACAD_REACTORS
330
47
102
}
330
47
100
AcDbScale
 70
     0
300
1:5
140
1.0
141
5.0
290
     0
  0
SCALE
  5
4C
102
{ACAD_REACTORS
330
47
102
}
330
47
100
AcDbScale
 70
     0
300
1:8
140
1.0
141
8.0
290
     0
  0
SCALE
  5
4D
102
{ACAD_REACTORS
330
47
102
}
330
47
100
AcDbScale
 70
     0
300
1:10
140
1.0
141
10.0
290
     0
  0
SCALE
  5
4E
102
{ACAD_REACTORS
330
47
102
}
330
47
100
AcDbScale
 70
     0
300
1:16
140
1.0
141
16.0
290
     0
  0
SCALE
  5
4F
102
{ACAD_REACTORS
330
47
102
}
330
47
100
AcDbScale
 70
     0
300
1:20
140
1.0
141
20.0
290
     0
  0
SCALE
  5
50
102
{ACAD_REACTORS
330
47
102
}
330
47
100
AcDbScale
 70
     0
300
1:30
140
1.0
141
30.0
290
     0
  0
SCALE
  5
51
102
{ACAD_REACTORS
330
47
102
}
330
47
100
AcDbScale
 70
     0
300
1:40
140
1.0
141
40.0
290
     0
  0
SCALE
  5
52
102
{ACAD_REACTORS
330
47
102
}
330
47
100
AcDbScale
 70
     0
300
1:50
140
1.0
141
50.0
290
     0
  0
SCALE
  5
53
102
{ACAD_REACTORS
330
47
102
}
330
47
100
AcDbScale
 70
     0
300
1:100
140
1.0
141
100.0
290
     0
  0
SCALE
  5
54
102
{ACAD_REACTORS
330
47
102
}
330
47
100
AcDbScale
 70
     0
300
2:1
140
2.0
141
1.0
290
     0
  0
SCALE
  5
55
102
{ACAD_REACTORS
330
47
102
}
330
47
100
AcDbScale
 70
     0
300
4:1
140
4.0
141
1.0
290
     0
  0
SCALE
  5
56
102
{ACAD_REACTORS
330
47
102
}
330
47
100
AcDbScale
 70
     0
300
8:1
140
8.0
141
1.0
290
     0
  0
SCALE
  5
57
102
{ACAD_REACTORS
330
47
102
}
330
47
100
AcDbScale
 70
     0
300
10:1
140
10.0
141
1.0
290
     0
  0
SCALE
  5
58
102
{ACAD_REACTORS
330
47
102
}
330
47
100
AcDbScale
 70
     0
300
100:1
140
100.0
141
1.0
290
     0
  0
SCALE
  5
59
102
{ACAD_REACTORS
330
47
102
}
330
47
100
AcDbScale
 70
     0
300
1/128" = 1'-0"
140
0.0078125
141
12.0
290
     0
  0
SCALE
  5
5A
102
{ACAD_REACTORS
330
47
102
}
330
47
100
AcDbScale
 70
     0
300
1/64" = 1'-0"
140
0.015625
141
12.0
290
     0
  0
SCALE
  5
5B
102
{ACAD_REACTORS
330
47
102
}
330
47
100
AcDbScale
 70
     0
300
1/32" = 1'-0"
140
0.03125
141
12.0
290
     0
  0
SCALE
  5
5C
102
{ACAD_REACTORS
330
47
102
}
330
47
100
AcDbScale
 70
     0
300
1/16" = 1'-0"
140
0.0625
141
12.0
290
     0
  0
SCALE
  5
5D
102
{ACAD_REACTORS
330
47
102
}
330
47
100
AcDbScale
 70
     0
300
3/32" = 1'-0"
140
0.09375
141
12.0
290
     0
  0
SCALE
  5
5E
102
{ACAD_REACTORS
330
47
102
}
330
47
100
AcDbScale
 70
     0
300
1/8" = 1'-0"
140
0.125
141
12.0
290
     0
  0
SCALE
  5
5F
102
{ACAD_REACTORS
330
47
102
}
330
47
100
AcDbScale
 70
     0
300
3/16" = 1'-0"
140
0.1875
141
12.0
290
     0
  0
SCALE
  5
60
102
{ACAD_REACTORS
330
47
102
}
330
47
100
AcDbScale
 70
     0
300
1/4" = 1'-0"
140
0.25
141
12.0
290
     0
  0
SCALE
  5
61
102
{ACAD_REACTORS
330
47
102
}
330
47
100
AcDbScale
 70
     0
300
3/8" = 1'-0"
140
0.375
141
12.0
290
     0
  0
SCALE
  5
62
102
{ACAD_REACTORS
330
47
102
}
330
47
100
AcDbScale
 70
     0
300
1/2" = 1'-0"
140
0.5
141
12.0
290
     0
  0
SCALE
  5
63
102
{ACAD_REACTORS
330
47
102
}
330
47
100
AcDbScale
 70
     0
300
3/4" = 1'-0"
140
0.75
141
12.0
290
     0
  0
SCALE
  5
64
102
{ACAD_REACTORS
330
47
102
}
330
47
100
AcDbScale
 70
     0
300
1" = 1'-0"
140
1.0
141
12.0
290
     0
  0
SCALE
  5
65
102
{ACAD_REACTORS
330
47
102
}
330
47
100
AcDbScale
 70
     0
300
1-1/2" = 1'-0"
140
1.5
141
12.0
290
     0
  0
SCALE
  5
66
102
{ACAD_REACTORS
330
47
102
}
330
47
100
AcDbScale
 70
     0
300
3" = 1'-0"
140
3.0
141
12.0
290
     0
  0
SCALE
  5
67
102
{ACAD_REACTORS
330
47
102
}
330
47
100
AcDbScale
 70
     0
300
6" = 1'-0"
140
6.0
141
12.0
290
     0
  0
SCALE
  5
68
102
{ACAD_REACTORS
330
47
102
}
330
47
100
AcDbScale
 70
     0
300
1'-0" = 1'-0"
140
12.0
141
12.0
290
     0
  0
ENDSEC
  0
EOF
